• Register
  • Help
Results 1 to 3 of 3

Topic: Summertime

Share/Bookmark
  1. #1

    Summertime

    sponsored links


    ***Advertisments***
    Something old school for your enjoyment:

    http://youtube.com/w/Chet-Atkins-and...h=jerry%20reed

    Have fun!

    e----------------------------------------------------------
    b----------------------------------------------------------
    g---------4 3----2--1-1-----0---------------------------
    d ---0-4------4----------2-----4--0--3---2--2--0------
    a -2------------------------------------4-------------1--
    e---------------------------------------------------2----

    &

    e----------------------------------------------------------
    b----------------------------------------------------------
    g---------4 3----2--1-1-----0---------------------------
    d ---0-4------4----------2-----4--0--3----------------
    a -2------------------------------------4----1--2--------
    e------------------------------------------2-------------
    I remain solely responsible for the content of my messages, and agree to indemnify and hold harmless northern sound source, and their agents with respect to any claim based upon transmission of my message(s). Rock on.

  2. #2

    Re: Summertime

    Yep, it was a fretless! I'd never seen (nor heard) a fretless acoustic, so that was really cool. The downside to fretless guitars is that hitting the intonation can be a problem, though if anyone could nail a fretless acoustic, Chet could (and did).

    I tabbed the intro for ya...get out the guitars and get going! Put the amps on 11 and point them at your neighbors house!
    I remain solely responsible for the content of my messages, and agree to indemnify and hold harmless northern sound source, and their agents with respect to any claim based upon transmission of my message(s). Rock on.

  3. #3

    Re: Summertime

    Trey Gunn (King Crimson & solo stuff) plays a fretless acoustic guitar, when he's not doing his Warr Guitar thing. He has a slightly different style though.

    -JF

Go Back to forum

Bookmarks

Posting Permissions

  • You may not post new threads
  • You may not post replies
  • You may not post attachments
  • You may not edit your posts
  •